Monday, 14 July 2014

Chura liya Hai tumne jo dil ko



The chords used in this song are fairly simple:
AmIIIxo231oAIIIxo213oEIIIo231ooE7IIIo2o1oo


GIII32ooo4DmIIIxoo231FIII134211Esus4IIIo234oo
INTRO
In the intro when the legendary glass and spoon groove starts you play the Esus4 chord (SLOW UPSTROKE)

Then you play the following intro:
E -----0-------|-----0-------|
B -------1-0---|-------1-0---|
G ---2-------2-|---2-------2-|
D -2-----------|-2-----------|
A -------------|-------------|
E -------------|-------------|

E -------------|-------------|
B -----1-0-----|-----3-0-----|
G ---2-----2---|---2-----2-1-|
D -3---------3-|-0-----------|
A -------------|-------------|
E -------------|-------------|
E -------0----------|----------|
B -----3---3--0-----|----------|
G ---1---------2-1--|-1----1---|
D -2--------------2-|----2-----|
A -----------[fast]-|----------|
E ------------------|----------|
E -----------------|-----------------|
B 0---0---0---0----|0---0---0---0----|
G ---2---2---2---2-|---2---2---2---2-|
D -----------------|-----------------|
A -----------------|-----------------|
E -----------------|-----------------|
(Am)Chura Liya Hai Tumne Jo (G)Dil Ko
(Am)Nazar Nahin Churaana Sa(E)nam
(Am)Badalke Meri Tum Zinda(G)gaani
(Am)Kahin Badal Na Jaana Sa(E)nam
Oh, Le Li(E7)ya Dil, Oh Haai Me(E7)ra Dil
Haai Dil (A)Lekar Mujhko (A)Na Behlaana
(Am)Chura Liya Hai Tumne Jo (G)Dil Ko
(Am)Nazar Nahin Churaana Sa(E)nam
(Am)Badalke Meri Tum Zinda(G)gaani
(Am)Kahin Badal Na Jaana Sa(E)nam
--------------x2----------------
(Dm)Bahaar Banke (G)Aaoon Kabhi
(Am)Tumhaari Duniya (Am)Mein
(Dm)Guzar Na Jaaye (G)Yeh Din
Kahin (F)Isi Tamanna (Am)Mein
--------------x2----------------
Tum Me(E7)re Ho, Ho Tum Me(E7)re Ho
Aaj Tum (A)Itna Vaada (A)Karte Jaana
(Am)Chura Liya
(Am)Chura Liya Hai Tumne Jo (G)Dil Ko
(Am)Nazar Nahin Churaana Sa(E)nam
(Am)Badalke Meri Tum Zinda(G)gaani
(Am)Kahin Badal Na Jaana Sa(E)nam
--------------x2----------------
Ho, (Dm)Sajaaoonga Lut (G)kar Bhi
Tere (Am)Badan Ki Daali (Am)Ko
(Dm)Lahoo Jigar Ka (G)Doonga
Haseen (F)Labon Ki Laali (Am)Ko
--------------x2----------------
Hai Va(E7)fa Kya Is Ja(E7)haan Ko
Ek Din (A)Dikhla Doonga (A)Main Deewana
(Am)Chura Liya
(Am)Chura Liya Hai Tumne Jo (G)Dil Ko
(Am)Nazar Nahin Churaana Sa(E)nam
(Am)Badalke Meri Tum Zinda(G)gaani
(Am)Kahin Badal Na Jaana Sa(E)nam
Oh, Le Li(E7)ya Dil, Oh Haai Me(E7)ra Dil
Haai Dil (A)Lekar Mujhko (A)Na Behlaana
(Am)Chura Liya Hai Tumne Jo (G)Dil Ko
(Am)Nazar Nahin Churaana Sa(E)nam
Hm Hm Hm Hm, Hm Hm Hm Hm...

No comments:

Post a Comment